  0
SECTION
  2
HEADER
  9
$ACADVER
  1
AC1014
  9
$ACADMAINTVER
 70
     9
  9
$DWGCODEPAGE
  3
ANSI_1252
  9
$INSBASE
 10
0.0
 20
0.0
 30
0.0
  9
$EXTMIN
 10
-222.5046591246594
 20
460.1141709994894
 30
0.0
  9
$EXTMAX
 10
33.39781024762209
 20
633.5659334921781
 30
0.0
  9
$LIMMIN
 10
0.0
 20
0.0
  9
$LIMMAX
 10
12.0
 20
9.0
  9
$ORTHOMODE
 70
     0
  9
$REGENMODE
 70
     1
  9
$FILLMODE
 70
     1
  9
$QTEXTMODE
 70
     0
  9
$MIRRTEXT
 70
     1
  9
$DRAGMODE
 70
     2
  9
$LTSCALE
 40
1.0
  9
$OSMODE
 70
    37
  9
$ATTMODE
 70
     1
  9
$TEXTSIZE
 40
0.2
  9
$TRACEWID
 40
0.05
  9
$TEXTSTYLE
  7
STANDARD
  9
$CLAYER
  8
0
  9
$CELTYPE
  6
BYLAYER
  9
$CECOLOR
 62
   256
  9
$CELTSCALE
 40
1.0
  9
$DELOBJ
 70
     1
  9
$DISPSILH
 70
     0
  9
$DIMSCALE
 40
1.0
  9
$DIMASZ
 40
0.18
  9
$DIMEXO
 40
0.0625
  9
$DIMDLI
 40
0.38
  9
$DIMRND
 40
0.0
  9
$DIMDLE
 40
0.0
  9
$DIMEXE
 40
0.18
  9
$DIMTP
 40
0.0
  9
$DIMTM
 40
0.0
  9
$DIMTXT
 40
0.18
  9
$DIMCEN
 40
0.09
  9
$DIMTSZ
 40
0.0
  9
$DIMTOL
 70
     0
  9
$DIMLIM
 70
     0
  9
$DIMTIH
 70
     1
  9
$DIMTOH
 70
     1
  9
$DIMSE1
 70
     0
  9
$DIMSE2
 70
     0
  9
$DIMTAD
 70
     0
  9
$DIMZIN
 70
     0
  9
$DIMBLK
  1

  9
$DIMASO
 70
     1
  9
$DIMSHO
 70
     1
  9
$DIMPOST
  1

  9
$DIMAPOST
  1

  9
$DIMALT
 70
     0
  9
$DIMALTD
 70
     2
  9
$DIMALTF
 40
25.4
  9
$DIMLFAC
 40
1.0
  9
$DIMTOFL
 70
     0
  9
$DIMTVP
 40
0.0
  9
$DIMTIX
 70
     0
  9
$DIMSOXD
 70
     0
  9
$DIMSAH
 70
     0
  9
$DIMBLK1
  1

  9
$DIMBLK2
  1

  9
$DIMSTYLE
  2
STANDARD_ACAD
  9
$DIMCLRD
 70
     0
  9
$DIMCLRE
 70
     0
  9
$DIMCLRT
 70
     0
  9
$DIMTFAC
 40
1.0
  9
$DIMGAP
 40
0.09
  9
$DIMJUST
 70
     0
  9
$DIMSD1
 70
     0
  9
$DIMSD2
 70
     0
  9
$DIMTOLJ
 70
     1
  9
$DIMTZIN
 70
     0
  9
$DIMALTZ
 70
     0
  9
$DIMALTTZ
 70
     0
  9
$DIMFIT
 70
     5
  9
$DIMUPT
 70
     0
  9
$DIMUNIT
 70
     2
  9
$DIMDEC
 70
     4
  9
$DIMTDEC
 70
     4
  9
$DIMALTU
 70
     2
  9
$DIMALTTD
 70
     2
  9
$DIMTXSTY
  7
STANDARD
  9
$DIMAUNIT
 70
     0
  9
$LUNITS
 70
     2
  9
$LUPREC
 70
     2
  9
$SKETCHINC
 40
0.1
  9
$FILLETRAD
 40
0.0
  9
$AUNITS
 70
     0
  9
$AUPREC
 70
     0
  9
$MENU
  1
.
  9
$ELEVATION
 40
0.0
  9
$PELEVATION
 40
0.0
  9
$THICKNESS
 40
0.0
  9
$LIMCHECK
 70
     0
  9
$CHAMFERA
 40
0.0
  9
$CHAMFERB
 40
0.0
  9
$CHAMFERC
 40
0.0
  9
$CHAMFERD
 40
0.0
  9
$SKPOLY
 70
     0
  9
$TDCREATE
 40
2460024.728940556
  9
$TDUPDATE
 40
2460024.728940567
  9
$TDINDWG
 40
0.0000000116
  9
$TDUSRTIMER
 40
0.0000000116
  9
$USRTIMER
 70
     1
  9
$ANGBASE
 50
0.0
  9
$ANGDIR
 70
     0
  9
$PDMODE
 70
     0
  9
$PDSIZE
 40
0.0
  9
$PLINEWID
 40
0.0
  9
$COORDS
 70
     1
  9
$SPLFRAME
 70
     0
  9
$SPLINETYPE
 70
     6
  9
$SPLINESEGS
 70
     8
  9
$ATTDIA
 70
     0
  9
$ATTREQ
 70
     1
  9
$HANDLING
 70
     1
  9
$HANDSEED
  5
DE
  9
$SURFTAB1
 70
     6
  9
$SURFTAB2
 70
     6
  9
$SURFTYPE
 70
     6
  9
$SURFU
 70
     6
  9
$SURFV
 70
     6
  9
$UCSNAME
  2

  9
$UCSORG
 10
0.0
 20
0.0
 30
0.0
  9
$UCSXDIR
 10
1.0
 20
0.0
 30
0.0
  9
$UCSYDIR
 10
0.0
 20
1.0
 30
0.0
  9
$PUCSNAME
  2

  9
$PUCSORG
 10
0.0
 20
0.0
 30
0.0
  9
$PUCSXDIR
 10
1.0
 20
0.0
 30
0.0
  9
$PUCSYDIR
 10
0.0
 20
1.0
 30
0.0
  9
$USERI1
 70
     0
  9
$USERI2
 70
     0
  9
$USERI3
 70
     0
  9
$USERI4
 70
     0
  9
$USERI5
 70
     0
  9
$USERR1
 40
0.0
  9
$USERR2
 40
0.0
  9
$USERR3
 40
0.0
  9
$USERR4
 40
0.0
  9
$USERR5
 40
0.0
  9
$WORLDVIEW
 70
     1
  9
$SHADEDGE
 70
     3
  9
$SHADEDIF
 70
    70
  9
$TILEMODE
 70
     1
  9
$MAXACTVP
 70
    64
  9
$PINSBASE
 10
0.0
 20
0.0
 30
0.0
  9
$PLIMCHECK
 70
     0
  9
$PEXTMIN
 10
1.000000000000000E+20
 20
1.000000000000000E+20
 30
1.000000000000000E+20
  9
$PEXTMAX
 10
-1.000000000000000E+20
 20
-1.000000000000000E+20
 30
-1.000000000000000E+20
  9
$PLIMMIN
 10
0.0
 20
0.0
  9
$PLIMMAX
 10
12.0
 20
9.0
  9
$UNITMODE
 70
     0
  9
$VISRETAIN
 70
     1
  9
$PLINEGEN
 70
     0
  9
$PSLTSCALE
 70
     1
  9
$TREEDEPTH
 70
  3020
  9
$PICKSTYLE
 70
     1
  9
$CMLSTYLE
  2
STANDARD
  9
$CMLJUST
 70
     0
  9
$CMLSCALE
 40
1.0
  9
$PROXYGRAPHICS
 70
     1
  9
$MEASUREMENT
 70
     1
  0
ENDSEC
  0
SECTION
  2
CLASSES
  0
CLASS
  1
ACDBDICTIONARYWDFLT
  2
AcDbDictionaryWithDefault
  3
ObjectDBX Classes
 90
        0
280
     0
281
     0
  0
CLASS
  1
VISUALSTYLE
  2
AcDbVisualStyle
  3
ObjectDBX Classes
 90
     4095
280
     0
281
     0
  0
CLASS
  1
MATERIAL
  2
AcDbMaterial
  3
ObjectDBX Classes
 90
     1153
280
     0
281
     0
  0
CLASS
  1
SCALE
  2
AcDbScale
  3
ObjectDBX Classes
 90
     1153
280
     0
281
     0
  0
CLASS
  1
TABLESTYLE
  2
AcDbTableStyle
  3
ObjectDBX Classes
 90
     4095
280
     0
281
     0
  0
CLASS
  1
MLEADERSTYLE
  2
AcDbMLeaderStyle
  3
ACDB_MLEADERSTYLE_CLASS
 90
     4095
280
     0
281
     0
  0
CLASS
  1
SUN
  2
AcDbSun
  3
SCENEOE
 90
     1153
280
     0
281
     0
  0
CLASS
  1
DICTIONARYVAR
  2
AcDbDictionaryVar
  3
ObjectDBX Classes
 90
        0
280
     0
281
     0
  0
CLASS
  1
XRECORD
  2
AcDbXrecord
  3
ObjectDBX Classes
 90
        0
280
     0
281
     0
  0
CLASS
  1
LWPOLYLINE
  2
AcDbPolyline
  3
ObjectDBX Classes
 90
        0
280
     0
281
     1
  0
CLASS
  1
HATCH
  2
AcDbHatch
  3
ObjectDBX Classes
 90
        0
280
     0
281
     1
  0
CLASS
  1
ACDBPLACEHOLDER
  2
AcDbPlaceHolder
  3
ObjectDBX Classes
 90
        0
280
     0
281
     0
  0
CLASS
  1
LAYOUT
  2
AcDbLayout
  3
ObjectDBX Classes
 90
        0
280
     0
281
     0
  0
ENDSEC
  0
SECTION
  2
TABLES
  0
TABLE
  2
VPORT
  5
8
102
{ACAD_XDICTIONARY
360
D3
102
}
330
0
100
AcDbSymbolTable
 70
     1
  0
VPORT
  5
29
330
8
100
AcDbSymbolTableRecord
100
AcDbViewportTableRecord
  2
*ACTIVE
 70
     0
 10
0.0
 20
0.0
 11
1.0
 21
1.0
 12
10.42990654205607
 22
4.5
 13
0.0
 23
0.0
 14
0.5
 24
0.5
 15
0.5
 25
0.5
 16
0.0
 26
0.0
 36
1.0
 17
0.0
 27
0.0
 37
0.0
 40
9.0
 41
1.972972972850329
 42
50.0
 43
0.0
 44
0.0
 50
0.0
 51
0.0
 71
     0
 72
   100
 73
     1
 74
     3
 75
     0
 76
     0
 77
     0
 78
     0
  0
ENDTAB
  0
TABLE
  2
LTYPE
  5
5
330
0
100
AcDbSymbolTable
 70
     1
  0
LTYPE
  5
14
330
5
100
AcDbSymbolTableRecord
100
AcDbLinetypeTableRecord
  2
BYBLOCK
 70
     0
  3

 72
    65
 73
     0
 40
0.0
  0
LTYPE
  5
15
330
5
100
AcDbSymbolTableRecord
100
AcDbLinetypeTableRecord
  2
BYLAYER
 70
     0
  3

 72
    65
 73
     0
 40
0.0
  0
LTYPE
  5
16
330
5
100
AcDbSymbolTableRecord
100
AcDbLinetypeTableRecord
  2
CONTINUOUS
 70
     0
  3
Solid line
 72
    65
 73
     0
 40
0.0
  0
ENDTAB
  0
TABLE
  2
LAYER
  5
2
330
0
100
AcDbSymbolTable
 70
     2
  0
LAYER
  5
10
330
2
100
AcDbSymbolTableRecord
100
AcDbLayerTableRecord
  2
0
 70
     0
 62
     7
  6
CONTINUOUS
  0
LAYER
  5
5F
330
2
100
AcDbSymbolTableRecord
100
AcDbLayerTableRecord
  2
LAYER_01
 70
     0
 62
    12
  6
CONTINUOUS
  0
ENDTAB
  0
TABLE
  2
STYLE
  5
3
330
0
100
AcDbSymbolTable
 70
     1
  0
STYLE
  5
11
330
3
100
AcDbSymbolTableRecord
100
AcDbTextStyleTableRecord
  2
STANDARD
 70
     0
 40
0.0
 41
1.0
 50
0.0
 71
     0
 42
0.2
  3
txt
  4

  0
ENDTAB
  0
TABLE
  2
VIEW
  5
6
330
0
100
AcDbSymbolTable
 70
     0
  0
ENDTAB
  0
TABLE
  2
UCS
  5
7
330
0
100
AcDbSymbolTable
 70
     0
  0
ENDTAB
  0
TABLE
  2
APPID
  5
9
330
0
100
AcDbSymbolTable
 70
     3
  0
APPID
  5
12
330
9
100
AcDbSymbolTableRecord
100
AcDbRegAppTableRecord
  2
ACAD
 70
     0
  0
APPID
  5
5E
330
9
100
AcDbSymbolTableRecord
100
AcDbRegAppTableRecord
  2
RHINO
 70
     0
  0
APPID
  5
DD
330
9
100
AcDbSymbolTableRecord
100
AcDbRegAppTableRecord
  2
ACAD_MLEADERVER
 70
     0
  0
ENDTAB
  0
TABLE
  2
DIMSTYLE
  5
A
330
0
100
AcDbSymbolTable
 70
     1
  0
DIMSTYLE
105
27
330
A
100
AcDbSymbolTableRecord
100
AcDbDimStyleTableRecord
  2
STANDARD_ACAD
 70
     0
  3

  4

  5

  6

  7

 40
1.0
 41
0.18
 42
0.0625
 43
0.38
 44
0.18
 45
0.0
 46
0.0
 47
0.0
 48
0.0
140
0.18
141
0.09
142
0.0
143
25.4
144
1.0
145
0.0
146
1.0
147
0.09
 71
     0
 72
     0
 73
     1
 74
     1
 75
     0
 76
     0
 77
     0
 78
     0
170
     0
171
     2
172
     0
173
     0
174
     0
175
     0
176
     0
177
     0
178
     0
270
     2
271
     4
272
     4
273
     2
274
     2
340
11
275
     0
280
     0
281
     0
282
     0
283
     1
284
     0
285
     0
286
     0
287
     3
288
     0
  0
ENDTAB
  0
TABLE
  2
BLOCK_RECORD
  5
1
330
0
100
AcDbSymbolTable
 70
     0
  0
BLOCK_RECORD
  5
1F
330
1
100
AcDbSymbolTableRecord
100
AcDbBlockTableRecord
  2
*MODEL_SPACE
  0
BLOCK_RECORD
  5
1B
330
1
100
AcDbSymbolTableRecord
100
AcDbBlockTableRecord
  2
*PAPER_SPACE
  0
ENDTAB
  0
ENDSEC
  0
SECTION
  2
BLOCKS
  0
BLOCK
  5
20
330
1F
100
AcDbEntity
  8
0
100
AcDbBlockBegin
  2
*MODEL_SPACE
 70
     0
 10
0.0
 20
0.0
 30
0.0
  3
*MODEL_SPACE
  1

  0
ENDBLK
  5
21
330
1F
100
AcDbEntity
  8
0
100
AcDbBlockEnd
  0
BLOCK
  5
1C
330
1B
100
AcDbEntity
 67
     1
  8
0
100
AcDbBlockBegin
  2
*PAPER_SPACE
 70
     0
 10
0.0
 20
0.0
 30
0.0
  3
*PAPER_SPACE
  1

  0
ENDBLK
  5
1D
330
1B
100
AcDbEntity
 67
     1
  8
0
100
AcDbBlockEnd
  0
ENDSEC
  0
SECTION
  2
ENTITIES
  0
POLYLINE
  5
60
330
1F
100
AcDbEntity
  8
LAYER_01
 62
     1
100
AcDb2dPolyline
 66
     1
 10
0.0
 20
0.0
 30
0.0
  0
VERTEX
  5
61
330
60
100
AcDbEntity
  8
LAYER_01
 62
     1
100
AcDbVertex
100
AcDb2dVertex
 10
-6.552459352853106
 20
597.1503891221893
 30
0.0
  0
VERTEX
  5
62
330
60
100
AcDbEntity
  8
LAYER_01
 62
     1
100
AcDbVertex
100
AcDb2dVertex
 10
-16.43511024038526
 20
587.2677382346575
 30
0.0
  0
VERTEX
  5
63
330
60
100
AcDbEntity
  8
LAYER_01
 62
     1
100
AcDbVertex
100
AcDb2dVertex
 10
-12.89957633445252
 20
583.7322043287248
 30
0.0
  0
VERTEX
  5
64
330
60
100
AcDbEntity
  8
LAYER_01
 62
     1
100
AcDbVertex
100
AcDb2dVertex
 10
-3.016925502059493
 20
593.6148551611177
 30
0.0
  0
SEQEND
  5
65
330
60
100
AcDbEntity
  8
LAYER_01
 62
     1
  0
ARC
  5
66
330
1F
100
AcDbEntity
  8
LAYER_01
 62
     1
100
AcDbCircle
 10
2.309818720872997
 20
592.9077483799311
 30
0.0
 40
1.0
210
0.0
220
0.0
230
-1.0
100
AcDbArc
 50
45.00000000000225
 51
136.5792181298606
  0
ARC
  5
67
330
1F
100
AcDbEntity
  8
LAYER_01
 62
     1
100
AcDbCircle
 10
94.55314556961653
 20
505.6141709994915
 30
0.0
 40
127.9999999999959
210
0.0
220
0.0
230
-1.0
100
AcDbArc
 50
136.5792181299451
 51
178.4076317930078
  0
ARC
  5
68
330
1F
100
AcDbEntity
  8
LAYER_01
 62
     1
100
AcDbCircle
 10
-32.39781024762209
 20
509.1433092921147
 30
0.0
 40
1.0
210
0.0
220
0.0
230
-1.0
100
AcDbArc
 50
178.4076317930338
 51
271.6643293569708
  0
POLYLINE
  5
69
330
1F
100
AcDbEntity
  8
LAYER_01
 62
     1
100
AcDb2dPolyline
 66
     1
 10
0.0
 20
0.0
 30
0.0
  0
VERTEX
  5
6A
330
69
100
AcDbEntity
  8
LAYER_01
 62
     1
100
AcDbVertex
100
AcDb2dVertex
 10
32.36876630539521
 20
508.1437311563894
 30
0.0
  0
VERTEX
  5
6B
330
69
100
AcDbEntity
  8
LAYER_01
 62
     1
100
AcDbVertex
100
AcDb2dVertex
 10
18.42873575006924
 20
508.5487754722113
 30
0.0
  0
VERTEX
  5
6C
330
69
100
AcDbEntity
  8
LAYER_01
 62
     1
100
AcDbVertex
100
AcDb2dVertex
 10
18.28351603893292
 20
503.5508847935853
 30
0.0
  0
VERTEX
  5
6D
330
69
100
AcDbEntity
  8
LAYER_01
 62
     1
100
AcDbVertex
100
AcDb2dVertex
 10
32.12939875974618
 20
503.1485760560728
 30
0.0
  0
SEQEND
  5
6E
330
69
100
AcDbEntity
  8
LAYER_01
 62
     1
  0
ARC
  5
6F
330
1F
100
AcDbEntity
  8
LAYER_01
 62
     1
100
AcDbCircle
 10
-32.10035481751883
 20
502.1489979203476
 30
0.0
 40
1.0
210
0.0
220
0.0
230
-1.0
100
AcDbArc
 50
91.6643293569974
 51
191.4206069017939
  0
ARC
  5
70
330
1F
100
AcDbEntity
  8
LAYER_01
 62
     1
100
AcDbCircle
 10
-14.9468544303794
 20
505.6141709994896
 30
0.0
 40
18.50000000000009
210
0.0
220
0.0
230
-1.0
100
AcDbArc
 50
191.4206069017724
 51
359.9999999999993
  0
ARC
  5
71
330
1F
100
AcDbEntity
  8
LAYER_01
 62
     1
100
AcDbCircle
 10
-67.55314556962065
 20
505.6141709994894
 30
0.0
 40
63.99999999999999
100
AcDbArc
 50
359.9999999999999
 51
34.88209891754023
  0
ARC
  5
72
330
1F
100
AcDbEntity
  8
LAYER_01
 62
     1
100
AcDbCircle
 10
14.23165702493215
 20
542.7869952045272
 30
0.0
 40
1.0
210
0.0
220
0.0
230
-1.0
100
AcDbArc
 50
325.1179010824592
 51
52.03124860070098
  0
POLYLINE
  5
73
330
1F
100
AcDbEntity
  8
LAYER_01
 62
     1
100
AcDb2dPolyline
 66
     1
 10
0.0
 20
0.0
 30
0.0
  0
VERTEX
  5
74
330
73
100
AcDbEntity
  8
LAYER_01
 62
     1
100
AcDbVertex
100
AcDb2dVertex
 10
-14.84688863476606
 20
543.5753416171284
 30
0.0
  0
VERTEX
  5
75
330
73
100
AcDbEntity
  8
LAYER_01
 62
     1
100
AcDbVertex
100
AcDb2dVertex
 10
-3.774206356018908
 20
552.2165481154968
 30
0.0
  0
VERTEX
  5
76
330
73
100
AcDbEntity
  8
LAYER_01
 62
     1
100
AcDbVertex
100
AcDb2dVertex
 10
-6.850364405188969
 20
556.1582801785023
 30
0.0
  0
VERTEX
  5
77
330
73
100
AcDbEntity
  8
LAYER_01
 62
     1
100
AcDbVertex
100
AcDb2dVertex
 10
-17.9230464605151
 20
547.5170738544934
 30
0.0
  0
SEQEND
  5
78
330
73
100
AcDbEntity
  8
LAYER_01
 62
     1
  0
ARC
  5
79
330
1F
100
AcDbEntity
  8
LAYER_01
 62
     1
100
AcDbCircle
 10
18.53827807034915
 20
548.3054202670945
 30
0.0
 40
1.0
210
0.0
220
0.0
230
-1.0
100
AcDbArc
 50
232.0312486006909
 51
318.9446007583546
  0
ARC
  5
7A
330
1F
100
AcDbEntity
  8
LAYER_01
 62
     1
100
AcDbCircle
 10
-67.55314556962088
 20
505.6141709994903
 30
0.0
 40
63.99999999999915
100
AcDbArc
 50
41.05539924166623
 51
124.8820989175408
  0
ARC
  5
7B
330
1F
100
AcDbEntity
  8
LAYER_01
 62
     1
100
AcDbCircle
 10
104.7259697746586
 20
558.9356595441778
 30
0.0
 40
1.0
210
0.0
220
0.0
230
-1.0
100
AcDbArc
 50
235.1179010824626
 51
322.0312486006938
  0
POLYLINE
  5
7C
330
1F
100
AcDbEntity
  8
LAYER_01
 62
     1
100
AcDb2dPolyline
 66
     1
 10
0.0
 20
0.0
 30
0.0
  0
VERTEX
  5
7D
330
7C
100
AcDbEntity
  8
LAYER_01
 62
     1
100
AcDbVertex
100
AcDb2dVertex
 10
-105.5143161872598
 20
558.3204279343438
 30
0.0
  0
VERTEX
  5
7E
330
7C
100
AcDbEntity
  8
LAYER_01
 62
     1
100
AcDbVertex
100
AcDb2dVertex
 10
-114.155522685628
 20
569.3931102130912
 30
0.0
  0
VERTEX
  5
7F
330
7C
100
AcDbEntity
  8
LAYER_01
 62
     1
100
AcDbVertex
100
AcDb2dVertex
 10
-118.0972547486336
 20
566.3169521639211
 30
0.0
  0
VERTEX
  5
80
330
7C
100
AcDbEntity
  8
LAYER_01
 62
     1
100
AcDbVertex
100
AcDb2dVertex
 10
-109.4560484246251
 20
555.2442701085954
 30
0.0
  0
SEQEND
  5
81
330
7C
100
AcDbEntity
  8
LAYER_01
 62
     1
  0
ARC
  5
82
330
1F
100
AcDbEntity
  8
LAYER_01
 62
     1
100
AcDbCircle
 10
110.2443948372262
 20
554.6290384987615
 30
0.0
 40
1.0
210
0.0
220
0.0
230
-1.0
100
AcDbArc
 50
142.0312486007
 51
228.9446007583439
  0
ARC
  5
83
330
1F
100
AcDbEntity
  8
LAYER_01
 62
     1
100
AcDbCircle
 10
-67.55314556961916
 20
505.6141709994891
 30
0.0
 40
64.00000000000153
100
AcDbArc
 50
131.0553992416675
 51
179.9999999999998
  0
ARC
  5
84
330
1F
100
AcDbEntity
  8
LAYER_01
 62
     1
100
AcDbCircle
 10
177.0531455696209
 20
505.6141709994896
 30
0.0
 40
45.50000000000026
210
0.0
220
0.0
230
-1.0
100
AcDbArc
 50
180.0000000000003
 51
228.8955247664674
  0
ARC
  5
85
330
1F
100
AcDbEntity
  8
LAYER_01
 62
     1
100
AcDbCircle
 10
147.7973279956165
 20
472.0828850403052
 30
0.0
 40
1.0
210
0.0
220
0.0
230
-1.0
100
AcDbArc
 50
228.8955247664663
 51
323.4065945567456
  0
POLYLINE
  5
86
330
1F
100
AcDbEntity
  8
LAYER_01
 62
     1
100
AcDb2dPolyline
 66
     1
 10
0.0
 20
0.0
 30
0.0
  0
VERTEX
  5
87
330
86
100
AcDbEntity
  8
LAYER_01
 62
     1
100
AcDbVertex
100
AcDb2dVertex
 10
-148.6002140890221
 20
471.4867525709531
 30
0.0
  0
VERTEX
  5
88
330
86
100
AcDbEntity
  8
LAYER_01
 62
     1
100
AcDbVertex
100
AcDb2dVertex
 10
-156.9048633763921
 20
482.6716615739521
 30
0.0
  0
VERTEX
  5
89
330
86
100
AcDbEntity
  8
LAYER_01
 62
     1
100
AcDbVertex
100
AcDb2dVertex
 10
-160.9192938434194
 20
479.6909992271904
 30
0.0
  0
VERTEX
  5
8A
330
86
100
AcDbEntity
  8
LAYER_01
 62
     1
100
AcDbVertex
100
AcDb2dVertex
 10
-152.6146444824934
 20
468.5060901251244
 30
0.0
  0
SEQEND
  5
8B
330
86
100
AcDbEntity
  8
LAYER_01
 62
     1
  0
ARC
  5
8C
330
1F
100
AcDbEntity
  8
LAYER_01
 62
     1
100
AcDbCircle
 10
153.4175305758988
 20
467.9099576557721
 30
0.0
 40
1.0
210
0.0
220
0.0
230
-1.0
100
AcDbArc
 50
143.4065945567329
 51
237.917662327104
  0
ARC
  5
8D
330
1F
100
AcDbEntity
  8
LAYER_01
 62
     1
100
AcDbCircle
 10
177.0531455696208
 20
505.6141709994893
 30
0.0
 40
45.49999999999991
210
0.0
220
0.0
230
-1.0
100
AcDbArc
 50
237.9176623271003
 51
355.5012373791782
  0
ARC
  5
8E
330
1F
100
AcDbEntity
  8
LAYER_01
 62
     1
100
AcDbCircle
 10
221.4160423125061
 20
502.123699315021
 30
0.0
 40
1.0
210
0.0
220
0.0
230
-1.0
100
AcDbArc
 50
355.501237379179
 51
89.4921778857404
  0
POLYLINE
  5
8F
330
1F
100
AcDbEntity
  8
LAYER_01
 62
     1
100
AcDb2dPolyline
 66
     1
 10
0.0
 20
0.0
 30
0.0
  0
VERTEX
  5
90
330
8F
100
AcDbEntity
  8
LAYER_01
 62
     1
100
AcDbVertex
100
AcDb2dVertex
 10
-221.4249053643728
 20
503.1236600374054
 30
0.0
  0
VERTEX
  5
91
330
8F
100
AcDbEntity
  8
LAYER_01
 62
     1
100
AcDbVertex
100
AcDb2dVertex
 10
-207.4850026041872
 20
503.2472149715301
 30
0.0
  0
VERTEX
  5
92
330
8F
100
AcDbEntity
  8
LAYER_01
 62
     1
100
AcDbVertex
100
AcDb2dVertex
 10
-207.529317863521
 20
508.2470185834522
 30
0.0
  0
VERTEX
  5
93
330
8F
100
AcDbEntity
  8
LAYER_01
 62
     1
100
AcDbVertex
100
AcDb2dVertex
 10
-221.4957960727925
 20
508.1232281004923
 30
0.0
  0
SEQEND
  5
94
330
8F
100
AcDbEntity
  8
LAYER_01
 62
     1
  0
ARC
  5
95
330
1F
100
AcDbEntity
  8
LAYER_01
 62
     1
100
AcDbCircle
 10
221.5046591246594
 20
509.1231888228767
 30
0.0
 40
1.0
210
0.0
220
0.0
230
-1.0
100
AcDbArc
 50
269.492177885729
 51
1.583287413336406
  0
ARC
  5
96
330
1F
100
AcDbEntity
  8
LAYER_01
 62
     1
100
AcDbCircle
 10
94.55314556961733
 20
505.6141709994881
 30
0.0
 40
128.0000000000034
210
0.0
220
0.0
230
-1.0
100
AcDbArc
 50
1.583287413336349
 51
43.4207831465768
  0
ARC
  5
97
330
1F
100
AcDbEntity
  8
LAYER_01
 62
     1
100
AcDbCircle
 10
186.7964704735072
 20
592.90775043507
 30
0.0
 40
1.0
210
0.0
220
0.0
230
-1.0
100
AcDbArc
 50
43.42078314657482
 51
135.0000000000081
  0
POLYLINE
  5
98
330
1F
100
AcDbEntity
  8
LAYER_01
 62
     1
100
AcDb2dPolyline
 66
     1
 10
0.0
 20
0.0
 30
0.0
  0
VERTEX
  5
99
330
98
100
AcDbEntity
  8
LAYER_01
 62
     1
100
AcDbVertex
100
AcDb2dVertex
 10
-186.0893636923205
 20
593.6148572162565
 30
0.0
  0
VERTEX
  5
9A
330
98
100
AcDbEntity
  8
LAYER_01
 62
     1
100
AcDbVertex
100
AcDb2dVertex
 10
-176.2067128047888
 20
583.7322063287248
 30
0.0
  0
VERTEX
  5
9B
330
98
100
AcDbEntity
  8
LAYER_01
 62
     1
100
AcDbVertex
100
AcDb2dVertex
 10
-172.6711788988561
 20
587.2677402346575
 30
0.0
  0
VERTEX
  5
9C
330
98
100
AcDbEntity
  8
LAYER_01
 62
     1
100
AcDbVertex
100
AcDb2dVertex
 10
-182.5538297312489
 20
597.1503910670504
 30
0.0
  0
SEQEND
  5
9D
330
98
100
AcDbEntity
  8
LAYER_01
 62
     1
  0
ARC
  5
9E
330
1F
100
AcDbEntity
  8
LAYER_01
 62
     1
100
AcDbCircle
 10
181.8467229500623
 20
597.8574978482369
 30
0.0
 40
1.0
210
0.0
220
0.0
230
-1.0
100
AcDbArc
 50
315.0
 51
46.57921812997404
  0
ARC
  5
9F
330
1F
100
AcDbEntity
  8
LAYER_01
 62
     1
100
AcDbCircle
 10
94.55314556962392
 20
505.614170999497
 30
0.0
 40
127.9999999999923
210
0.0
220
0.0
230
-1.0
100
AcDbArc
 50
46.57921812994525
 51
88.42078250831707
  0
ARC
  5
A0
330
1F
100
AcDbEntity
  8
LAYER_01
 62
     1
100
AcDbCircle
 10
98.05314556962071
 20
632.5659334921779
 30
0.0
 40
1.0
210
0.0
220
0.0
230
-1.0
100
AcDbArc
 50
88.42078250833544
 51
179.9999999999609
  0
POLYLINE
  5
A1
330
1F
100
AcDbEntity
  8
LAYER_01
 62
     1
100
AcDb2dPolyline
 66
     1
 10
0.0
 20
0.0
 30
0.0
  0
VERTEX
  5
A2
330
A1
100
AcDbEntity
  8
LAYER_01
 62
     1
100
AcDbVertex
100
AcDb2dVertex
 10
-97.05314556962071
 20
632.5659334921786
 30
0.0
  0
VERTEX
  5
A3
330
A1
100
AcDbEntity
  8
LAYER_01
 62
     1
100
AcDbVertex
100
AcDb2dVertex
 10
-97.05314556962067
 20
618.5897549994894
 30
0.0
  0
VERTEX
  5
A4
330
A1
100
AcDbEntity
  8
LAYER_01
 62
     1
100
AcDbVertex
100
AcDb2dVertex
 10
-92.05314556962067
 20
618.5897549994894
 30
0.0
  0
VERTEX
  5
A5
330
A1
100
AcDbEntity
  8
LAYER_01
 62
     1
100
AcDbVertex
100
AcDb2dVertex
 10
-92.05314556962067
 20
632.5659334921781
 30
0.0
  0
SEQEND
  5
A6
330
A1
100
AcDbEntity
  8
LAYER_01
 62
     1
  0
ARC
  5
A7
330
1F
100
AcDbEntity
  8
LAYER_01
 62
     1
100
AcDbCircle
 10
91.05314556962067
 20
632.5659334921781
 30
0.0
 40
1.0
210
0.0
220
0.0
230
-1.0
100
AcDbArc
 50
0.0
 51
91.57921749166456
  0
ARC
  5
A8
330
1F
100
AcDbEntity
  8
LAYER_01
 62
     1
100
AcDbCircle
 10
94.5531455696233
 20
505.6141709994838
 30
0.0
 40
128.0000000000058
210
0.0
220
0.0
230
-1.0
100
AcDbArc
 50
91.5792174916854
 51
133.4207831465767
  0
ARC
  5
A9
330
1F
100
AcDbEntity
  8
LAYER_01
 62
     1
100
AcDbCircle
 10
7.259566134039829
 20
597.8574959033757
 30
0.0
 40
1.0
210
0.0
220
0.0
230
-1.0
100
AcDbArc
 50
133.4207831465783
 51
224.9999999999887
  0
ENDSEC
  0
SECTION
  2
OBJECTS
  0
DICTIONARY
  5
C
330
0
100
AcDbDictionary
  3
ACAD_GROUP
350
D
  3
ACAD_LAYOUT
350
1A
  3
ACAD_MATERIAL
350
43
  3
ACAD_MLEADERSTYLE
350
5B
  3
ACAD_MLINESTYLE
350
17
  3
ACAD_PLOTSETTINGS
350
19
  3
ACAD_SCALELIST
350
47
  3
ACAD_VISUALSTYLE
350
2A
  3
ACDBHEADERROUNDTRIPXREC
350
AA
  3
ACDBVARIABLEDICTIONARY
350
CB
  3
DWGPROPS
350
D2
  0
DICTIONARY
  5
D3
330
8
100
AcDbDictionary
280
     1
  3
ACAD_XREC_ROUNDTRIP
360
D4
  0
DICTIONARY
  5
D
102
{ACAD_REACTORS
330
C
102
}
330
C
100
AcDbDictionary
  0
DICTIONARY
  5
1A
102
{ACAD_REACTORS
330
C
102
}
330
C
100
AcDbDictionary
  0
DICTIONARY
  5
43
102
{ACAD_REACTORS
330
C
102
}
330
C
100
AcDbDictionary
  3
BYBLOCK
350
45
  3
BYLAYER
350
44
  3
GLOBAL
350
46
  0
DICTIONARY
  5
5B
102
{ACAD_REACTORS
330
C
102
}
330
C
100
AcDbDictionary
  3
STANDARD
350
5C
  0
DICTIONARY
  5
17
102
{ACAD_REACTORS
330
C
102
}
330
C
100
AcDbDictionary
  3
STANDARD
350
18
  0
DICTIONARY
  5
19
102
{ACAD_REACTORS
330
C
102
}
330
C
100
AcDbDictionary
  0
DICTIONARY
  5
47
102
{ACAD_REACTORS
330
C
102
}
330
C
100
AcDbDictionary
  3
A0
350
48
  3
A1
350
49
  3
A2
350
4A
  3
A3
350
4B
  3
A4
350
4C
  3
A5
350
4D
  3
A6
350
4E
  3
A7
350
4F
  3
A8
350
50
  3
A9
350
51
  3
B1
350
52
  3
B2
350
53
  3
B3
350
54
  3
B4
350
55
  3
B5
350
56
  3
B6
350
57
  3
B7
350
58
  0
DICTIONARY
  5
2A
102
{ACAD_REACTORS
330
C
102
}
330
C
100
AcDbDictionary
  3
2DWIREFRAME
350
2F
  3
BASIC
350
32
  3
BRIGHTEN
350
36
  3
COLORCHANGE
350
3A
  3
CONCEPTUAL
350
34
  3
DIM
350
35
  3
EDGECOLOROFF
350
3D
  3
FACEPATTERN
350
39
  3
FLAT
350
2B
  3
FLATWITHEDGES
350
2C
  3
GOURAUD
350
2D
  3
GOURAUDWITHEDGES
350
2E
  3
HIDDEN
350
31
  3
JITTEROFF
350
3B
  3
LINEPATTERN
350
38
  3
OVERHANGOFF
350
3C
  3
REALISTIC
350
33
  3
SHADED
350
42
  3
SHADED_WITH_EDGES
350
41
  3
SHADES_OF_GRAY
350
3E
  3
SKETCHY
350
3F
  3
THICKEN
350
37
  3
WIREFRAME
350
30
  3
X-RAY
350
40
  0
DICTIONARY
  5
AA
102
{ACAD_REACTORS
330
C
102
}
330
C
100
AcDbDictionary
  3
CEPSNID
350
B4
  3
CEPSNTYPE
350
B3
  3
DIMSTYLEDATA
350
CA
  3
FINGERPRINTGUID
350
B5
  3
HYPERLINKBASE
350
AD
  3
INSUNITS
350
B2
  3
LAYOUTDICT
350
AF
  3
LWETCUNION
350
B1
  3
PLOTSETDICT
350
B0
  3
PSVPSCALE
350
B7
  3
PUCSBASE
350
BA
  3
PUCSORGBACK
350
C0
  3
PUCSORGBOTTOM
350
BC
  3
PUCSORGFRONT
350
BF
  3
PUCSORGLEFT
350
BD
  3
PUCSORGRIGHT
350
BE
  3
PUCSORGTOP
350
BB
  3
PUCSORTHOREF
350
B8
  3
PUCSORTHOVIEW
350
B9
  3
STYLESHEET
350
AE
  3
TSTACKALIGN
350
AB
  3
TSTACKSIZE
350
AC
  3
UCSBASE
350
C3
  3
UCSORGBACK
350
C9
  3
UCSORGBOTTOM
350
C5
  3
UCSORGFRONT
350
C8
  3
UCSORGLEFT
350
C6
  3
UCSORGRIGHT
350
C7
  3
UCSORGTOP
350
C4
  3
UCSORTHOREF
350
C1
  3
UCSORTHOVIEW
350
C2
  3
VERSIONGUID
350
B6
  0
DICTIONARY
  5
CB
102
{ACAD_REACTORS
330
C
102
}
330
C
100
AcDbDictionary
  3
CANNOSCALE
350
D5
  3
CMLEADERSTYLE
350
CD
  3
CTABLESTYLE
350
CC
  3
DIMASSOC
350
D0
  3
HIDETEXT
350
D1
  3
MSLTSCALE
350
D6
  0
XRECORD
  5
D2
102
{ACAD_REACTORS
330
C
102
}
330
C
100
AcDbXrecord
  1
DWGPROPS COOKIE
  2

  3

  4

  6

  7

  8
ASUS
  9

300
=
301
=
302
=
303
=
304
=
305
=
306
=
307
=
308
=
309
=
 40
0.0
 41
2460024.687273889
 42
2460024.687273901
  1

 90
        0
  0
XRECORD
  5
D4
102
{ACAD_REACTORS
330
D3
102
}
330
D3
100
AcDbXrecord
102
VTR_0.000_0.000_1.000_1.000_VISUALSTYLE
340
2F
102
VTR_0.000_0.000_1.000_1.000_GRIDDISPLAY
 70
     3
102
VTR_0.000_0.000_1.000_1.000_GRIDMAJOR
 70
     5
102
VTR_0.000_0.000_1.000_1.000_DEFAULTLIGHTING
280
     1
102
VTR_0.000_0.000_1.000_1.000_DEFAULTLIGHTINGTYPE
 70
     1
102
VTR_0.000_0.000_1.000_1.000_BRIGHTNESS
141
0.0
102
VTR_0.000_0.000_1.000_1.000_CONTRAST
142
0.0
  0
MATERIAL
  5
45
102
{ACAD_REACTORS
330
43
102
}
102
{ACAD_XDICTIONARY
360
D9
102
}
330
43
100
AcDbMaterial
  1
BYBLOCK
  0
MATERIAL
  5
44
102
{ACAD_REACTORS
330
43
102
}
102
{ACAD_XDICTIONARY
360
D7
102
}
330
43
100
AcDbMaterial
  1
BYLAYER
  0
MATERIAL
  5
46
102
{ACAD_REACTORS
330
43
102
}
102
{ACAD_XDICTIONARY
360
DB
102
}
330
43
100
AcDbMaterial
  1
GLOBAL
  0
ACAD_PROXY_OBJECT
  5
5C
102
{ACAD_REACTORS
330
5B
102
}
330
5B
100
AcDbProxyObject
 90
      499
 91
      505
 93
      610
310
40901902A4063FBFFFFFE056BD1B81E855B9FC0AD7A3703D0AD73F4214DD185B99185C9900AD7A3703D0AC73F90141901A02B5E8DC0F42B1CFC02B5E8DC0F42B1CFE5764000000000000300FC0
340
14
340
0
340
11
340
0
 94
        0
1001
ACAD_MLEADERVER
1070
     2
  0
MLINESTYLE
  5
18
102
{ACAD_REACTORS
330
17
102
}
330
17
100
AcDbMlineStyle
  2
Standard
 70
     0
  3

 62
   256
 51
90.0
 52
90.0
 71
     2
 49
0.5
 62
   256
  6
BYLAYER
 49
-0.5
 62
   256
  6
BYLAYER
  0
ACAD_PROXY_OBJECT
  5
48
102
{ACAD_REACTORS
330
47
102
}
330
47
100
AcDbProxyObject
 90
      499
 91
      503
 93
       41
310
903313A31580
  0
ACAD_PROXY_OBJECT
  5
49
102
{ACAD_REACTORS
330
47
102
}
330
47
100
AcDbProxyObject
 90
      499
 91
      503
 93
      257
310
90E312F31323822203D2031272D3022000000000000200FC000000000000284000
  0
ACAD_PROXY_OBJECT
  5
4A
102
{ACAD_REACTORS
330
47
102
}
330
47
100
AcDbProxyObject
 90
      499
 91
      503
 93
      249
310
90D312F363422203D2031272D3022000000000000240FC000000000000284000
  0
ACAD_PROXY_OBJECT
  5
4B
102
{ACAD_REACTORS
330
47
102
}
330
47
100
AcDbProxyObject
 90
      499
 91
      503
 93
      249
310
90D312F333222203D2031272D3022000000000000280FC000000000000284000
  0
ACAD_PROXY_OBJECT
  5
4C
102
{ACAD_REACTORS
330
47
102
}
330
47
100
AcDbProxyObject
 90
      499
 91
      503
 93
      249
310
90D312F313622203D2031272D30220000000000002C0FC000000000000284000
  0
ACAD_PROXY_OBJECT
  5
4D
102
{ACAD_REACTORS
330
47
102
}
330
47
100
AcDbProxyObject
 90
      499
 91
      503
 93
      249
310
90D332F333222203D2031272D30220000000000002E0FC000000000000284000
  0
ACAD_PROXY_OBJECT
  5
4E
102
{ACAD_REACTORS
330
47
102
}
330
47
100
AcDbProxyObject
 90
      499
 91
      503
 93
      241
310
90C312F3822203D2031272D3022000000000000300FC000000000000284000
  0
ACAD_PROXY_OBJECT
  5
4F
102
{ACAD_REACTORS
330
47
102
}
330
47
100
AcDbProxyObject
 90
      499
 91
      503
 93
      249
310
90D332F313622203D2031272D3022000000000000320FC000000000000284000
  0
ACAD_PROXY_OBJECT
  5
50
102
{ACAD_REACTORS
330
47
102
}
330
47
100
AcDbProxyObject
 90
      499
 91
      503
 93
      241
310
90C312F3422203D2031272D3022000000000000340FC000000000000284000
  0
ACAD_PROXY_OBJECT
  5
51
102
{ACAD_REACTORS
330
47
102
}
330
47
100
AcDbProxyObject
 90
      499
 91
      503
 93
      241
310
90C332F3822203D2031272D3022000000000000360FC000000000000284000
  0
ACAD_PROXY_OBJECT
  5
52
102
{ACAD_REACTORS
330
47
102
}
330
47
100
AcDbProxyObject
 90
      499
 91
      503
 93
      241
310
90C312F3222203D2031272D3022000000000000380FC000000000000284000
  0
ACAD_PROXY_OBJECT
  5
53
102
{ACAD_REACTORS
330
47
102
}
330
47
100
AcDbProxyObject
 90
      499
 91
      503
 93
      241
310
90C332F3422203D2031272D30220000000000003A0FC000000000000284000
  0
ACAD_PROXY_OBJECT
  5
54
102
{ACAD_REACTORS
330
47
102
}
330
47
100
AcDbProxyObject
 90
      499
 91
      503
 93
      161
310
90A3122203D2031272D30224000000000000284000
  0
ACAD_PROXY_OBJECT
  5
55
102
{ACAD_REACTORS
330
47
102
}
330
47
100
AcDbProxyObject
 90
      499
 91
      503
 93
      257
310
90E312D312F3222203D2031272D30220000000000003E0FC000000000000284000
  0
ACAD_PROXY_OBJECT
  5
56
102
{ACAD_REACTORS
330
47
102
}
330
47
100
AcDbProxyObject
 90
      499
 91
      503
 93
      225
310
90A3322203D2031272D302200000000000002100000000000000284000
  0
ACAD_PROXY_OBJECT
  5
57
102
{ACAD_REACTORS
330
47
102
}
330
47
100
AcDbProxyObject
 90
      499
 91
      503
 93
      225
310
90A3622203D2031272D302200000000000006100000000000000284000
  0
ACAD_PROXY_OBJECT
  5
58
102
{ACAD_REACTORS
330
47
102
}
330
47
100
AcDbProxyObject
 90
      499
 91
      503
 93
      249
310
90D31272D3022203D2031272D30220000000000000A100000000000000284000
  0
ACAD_PROXY_OBJECT
  5
2F
102
{ACAD_REACTORS
330
2A
102
}
330
2A
100
AcDbProxyObject
 90
      499
 91
      501
 93
      436
310
42CC9915DA5C99599C985B595049028333333333333E33F0000000000000F90107901411070040501600405405064090741402480A0340
1001
ACAD
1000
AcDbSavedByObjectVersion
1070
     0
  0
ACAD_PROXY_OBJECT
  5
32
102
{ACAD_REACTORS
330
2A
102
}
330
2A
100
AcDbProxyObject
 90
      499
 91
      501
 93
      388
310
4150985CDA58D07406404333333333333E33F0000000000000F90107A41107004050150841D405064090741402480A0350
1001
ACAD
1000
AcDbSavedByObjectVersion
1070
     0
  0
ACAD_PROXY_OBJECT
  5
36
102
{ACAD_REACTORS
330
2A
102
}
330
2A
100
AcDbProxyObject
 90
      499
 91
      501
 93
      428
310
42109C9A59DA1D195B90C409028333333333333E33F0000000000000F9010790141107004050150841D405064090741402480A029950
1001
ACAD
1000
AcDbSavedByObjectVersion
1070
     0
  0
ACAD_PROXY_OBJECT
  5
3A
102
{ACAD_REACTORS
330
2A
102
}
330
2A
100
AcDbProxyObject
 90
      499
 91
      501
 93
      452
310
42D0DBDB1BDC90DA185B99D95104090240C333333333333E33F0000000000000F90108901411070040501508421405064090741402480A0350
1001
ACAD
1000
AcDbSavedByObjectVersion
1070
     0
  0
ACAD_PROXY_OBJECT
  5
34
102
{ACAD_REACTORS
330
2A
102
}
330
2A
100
AcDbProxyObject
 90
      499
 91
      501
 93
      500
310
4290DBDB98D95C1D1D585B10940D028333333333333E33F0000000000000F90107902409070040501000000000018199010841D405064090740C02480A0340
1001
ACAD
1000
AcDbSavedByObjectVersion
1070
     0
  0
ACAD_PROXY_OBJECT
  5
35
102
{ACAD_REACTORS
330
2A
102
}
330
2A
100
AcDbProxyObject
 90
      499
 91
      501
 93
      412
310
40D11A5B50B409028333333333333E33F0000000000000F9010790141107004050150841D405064090741402480A02677FFFFFD0
1001
ACAD
1000
AcDbSavedByObjectVersion
1070
     0
  0
ACAD_PROXY_OBJECT
  5
3D
102
{ACAD_REACTORS
330
2A
102
}
330
2A
100
AcDbProxyObject
 90
      499
 91
      501
 93
      452
310
43115919D950DBDB1BDC93D999916409028333333333333E33F0000000000000F9010790141107004050150841D405064090741402480A0350
1001
ACAD
1000
AcDbSavedByObjectVersion
1070
     0
  0
ACAD_PROXY_OBJECT
  5
39
102
{ACAD_REACTORS
330
2A
102
}
330
2A
100
AcDbProxyObject
 90
      499
 91
      501
 93
      444
310
42D19858D95C185D1D195C9B90F409028333333333333E33F0000000000000F9010790141107004050150841D405064090741402480A0350
1001
ACAD
1000
AcDbSavedByObjectVersion
1070
     0
  0
ACAD_PROXY_OBJECT
  5
2B
102
{ACAD_REACTORS
330
2A
102
}
330
2A
100
AcDbProxyObject
 90
      499
 91
      501
 93
      380
310
41119B185D240901404333333333333E33F0000000000000F9010740A907004050150841D405064090741402480A1B50
1001
ACAD
1000
AcDbSavedByObjectVersion
1070
     0
  0
ACAD_PROXY_OBJECT
  5
2C
102
{ACAD_REACTORS
330
2A
102
}
330
2A
100
AcDbProxyObject
 90
      499
 91
      501
 93
      468
310
43519B185D15DA5D1A115919D95CD0140901404333333333333E33F0000000000000F90107409019070040501600405405064090741402480A1B50
1001
ACAD
1000
AcDbSavedByObjectVersion
1070
     0
  0
ACAD_PROXY_OBJECT
  5
2D
102
{ACAD_REACTORS
330
2A
102
}
330
2A
100
AcDbProxyObject
 90
      499
 91
      501
 93
      404
310
41D1DBDD5C985D5910240902404333333333333E33F0000000000000F9010740A9070040501641D405064090741402480A1B50
1001
ACAD
1000
AcDbSavedByObjectVersion
1070
     0
  0
ACAD_PROXY_OBJECT
  5
2E
102
{ACAD_REACTORS
330
2A
102
}
330
2A
100
AcDbProxyObject
 90
      499
 91
      501
 93
      492
310
4411DBDD5C985D5915DA5D1A115919D95CD0340902404333333333333E33F0000000000000F90107409019070040501600405405064090741402480A1B50
1001
ACAD
1000
AcDbSavedByObjectVersion
1070
     0
  0
ACAD_PROXY_OBJECT
  5
31
102
{ACAD_REACTORS
330
2A
102
}
330
2A
100
AcDbProxyObject
 90
      499
 91
      501
 93
      476
310
41921A5919195B90640502408333333333333E33F0000000000000F901079024090700405020000000000001110200405405064090740C02480A0340
1001
ACAD
1000
AcDbSavedByObjectVersion
1070
     0
  0
ACAD_PROXY_OBJECT
  5
3B
102
{ACAD_REACTORS
330
2A
102
}
330
2A
100
AcDbProxyObject
 90
      499
 91
      501
 93
      428
310
42529A5D1D195C93D999914409028333333333333E33F0000000000000F9010790141107004050150A41D405064090741402480A0350
1001
ACAD
1000
AcDbSavedByObjectVersion
1070
     0
  0
ACAD_PROXY_OBJECT
  5
38
102
{ACAD_REACTORS
330
2A
102
}
330
2A
100
AcDbProxyObject
 90
      499
 91
      501
 93
      444
310
42D31A5B995C185D1D195C9B90E409028333333333333E33F0000000000000F9010790141107004050750841D405064090741402483A0350
1001
ACAD
1000
AcDbSavedByObjectVersion
1070
     0
  0
ACAD_PROXY_OBJECT
  5
3C
102
{ACAD_REACTORS
330
2A
102
}
330
2A
100
AcDbProxyObject
 90
      499
 91
      501
 93
      444
310
42D3DD995C9A185B99D3D999915409028333333333333E33F0000000000000F9010790141107004050150941D405064090741402480A0350
1001
ACAD
1000
AcDbSavedByObjectVersion
1070
     0
  0
ACAD_PROXY_OBJECT
  5
33
102
{ACAD_REACTORS
330
2A
102
}
330
2A
100
AcDbProxyObject
 90
      499
 91
      501
 93
      428
310
425499585B1A5CDD1A58D08409038333333333333E33F0000000000000F9010740A907004050150800405405064090740C02480A1B40
1001
ACAD
1000
AcDbSavedByObjectVersion
1070
     0
  0
ACAD_PROXY_OBJECT
  5
42
102
{ACAD_REACTORS
330
2A
102
}
330
2A
100
AcDbProxyObject
 90
      499
 91
      501
 93
      420
310
4194DA1859195911B40902404333333333333E33F0000000000000F9010740A41107004050150800405405064090840C02480A0B40
1001
ACAD
1000
AcDbSavedByObjectVersion
1070
     0
  0
ACAD_PROXY_OBJECT
  5
41
102
{ACAD_REACTORS
330
2A
102
}
330
2A
100
AcDbProxyObject
 90
      499
 91
      501
 93
      516
310
4454DA18591959081DDA5D1A08195919D95CD1A40902404333333333333E33F0000000000000F901074090142907004050250800405405064090740C02480A0B40
1001
ACAD
1000
AcDbSavedByObjectVersion
1070
     0
  0
ACAD_PROXY_OBJECT
  5
3E
102
{ACAD_REACTORS
330
2A
102
}
330
2A
100
AcDbProxyObject
 90
      499
 91
      501
 93
      532
310
4394DA1859195CC81BD98811DC985E5174090240C333333333333E33F0000000000000F901079024090741D01000000000000111010841D405064090740C02480A0340
1001
ACAD
1000
AcDbSavedByObjectVersion
1070
     0
  0
ACAD_PROXY_OBJECT
  5
3F
102
{ACAD_REACTORS
330
2A
102
}
330
2A
100
AcDbProxyObject
 90
      499
 91
      501
 93
      476
310
41D4DAD95D18DA1E51840502408333333333333E33F0000000000000F901079024090741D01000000000000111010B41D405064090741802480A0340
1001
ACAD
1000
AcDbSavedByObjectVersion
1070
     0
  0
ACAD_PROXY_OBJECT
  5
37
102
{ACAD_REACTORS
330
2A
102
}
330
2A
100
AcDbProxyObject
 90
      499
 91
      501
 93
      412
310
41D51A1A58DAD95B90D409028333333333333E33F0000000000000F9010790141107004050150C41D405064090741402480A0350
1001
ACAD
1000
AcDbSavedByObjectVersion
1070
     0
  0
ACAD_PROXY_OBJECT
  5
30
102
{ACAD_REACTORS
330
2A
102
}
330
2A
100
AcDbProxyObject
 90
      499
 91
      501
 93
      420
310
4255DA5C99599C985B595059028333333333333E33F0000000000000F90107901411070040501600405405064090740C02480A0340
1001
ACAD
1000
AcDbSavedByObjectVersion
1070
     0
  0
ACAD_PROXY_OBJECT
  5
40
102
{ACAD_REACTORS
330
2A
102
}
330
2A
100
AcDbProxyObject
 90
      499
 91
      501
 93
      404
310
41560B54985E51940902404000000000000E03F0000000000000F9010740501907004050150841D405064090740C02480A1B40
1001
ACAD
1000
AcDbSavedByObjectVersion
1070
     0
  0
XRECORD
  5
B4
102
{ACAD_REACTORS
330
AA
102
}
330
AA
100
AcDbXrecord
340
0
  0
XRECORD
  5
B3
102
{ACAD_REACTORS
330
AA
102
}
330
AA
100
AcDbXrecord
 90
        0
  0
XRECORD
  5
CA
102
{ACAD_REACTORS
330
AA
102
}
330
AA
100
AcDbXrecord
1000
DSTYLE
1002
{
1070
   171
 70
     2
1070
   143
 40
25.4
1070
   274
 70
     2
1070
    41
 40
0.18
1070
   141
 40
0.09
1070
   271
 70
     4
1070
    43
 40
0.38
1070
   278
 70
    46
1070
    44
 40
0.18
1070
    42
 40
0.0625
1070
   147
 40
0.09
1070
    77
 70
     0
1070
   272
 70
     4
1070
    73
 70
     1
1070
   279
 70
     2
1070
   172
 70
     0
1070
    74
 70
     1
1070
   283
 70
     1
1070
   340
340
11
1070
   140
 40
0.18
1070
   284
 70
     0
1070
    78
 70
     0
1002
}
  0
XRECORD
  5
B5
102
{ACAD_REACTORS
330
AA
102
}
330
AA
100
AcDbXrecord
  1
{9db0c827-6af8-48f7-aeda-7dbc916c090a}
  0
XRECORD
  5
AD
102
{ACAD_REACTORS
330
AA
102
}
330
AA
100
AcDbXrecord
  1

  0
XRECORD
  5
B2
102
{ACAD_REACTORS
330
AA
102
}
330
AA
100
AcDbXrecord
 90
        4
  0
XRECORD
  5
AF
102
{ACAD_REACTORS
330
AA
102
}
330
AA
100
AcDbXrecord
340
1A
  0
XRECORD
  5
B1
102
{ACAD_REACTORS
330
AA
102
}
330
AA
100
AcDbXrecord
 90
    10781
  0
XRECORD
  5
B0
102
{ACAD_REACTORS
330
AA
102
}
330
AA
100
AcDbXrecord
340
19
  0
XRECORD
  5
B7
102
{ACAD_REACTORS
330
AA
102
}
330
AA
100
AcDbXrecord
 40
0.0
  0
XRECORD
  5
BA
102
{ACAD_REACTORS
330
AA
102
}
330
AA
100
AcDbXrecord
340
0
  0
XRECORD
  5
C0
102
{ACAD_REACTORS
330
AA
102
}
330
AA
100
AcDbXrecord
 10
0.0
 20
0.0
 30
0.0
  0
XRECORD
  5
BC
102
{ACAD_REACTORS
330
AA
102
}
330
AA
100
AcDbXrecord
 10
0.0
 20
0.0
 30
0.0
  0
XRECORD
  5
BF
102
{ACAD_REACTORS
330
AA
102
}
330
AA
100
AcDbXrecord
 10
0.0
 20
0.0
 30
0.0
  0
XRECORD
  5
BD
102
{ACAD_REACTORS
330
AA
102
}
330
AA
100
AcDbXrecord
 10
0.0
 20
0.0
 30
0.0
  0
XRECORD
  5
BE
102
{ACAD_REACTORS
330
AA
102
}
330
AA
100
AcDbXrecord
 10
0.0
 20
0.0
 30
0.0
  0
XRECORD
  5
BB
102
{ACAD_REACTORS
330
AA
102
}
330
AA
100
AcDbXrecord
 10
0.0
 20
0.0
 30
0.0
  0
XRECORD
  5
B8
102
{ACAD_REACTORS
330
AA
102
}
330
AA
100
AcDbXrecord
340
0
  0
XRECORD
  5
B9
102
{ACAD_REACTORS
330
AA
102
}
330
AA
100
AcDbXrecord
 70
     0
  0
XRECORD
  5
AE
102
{ACAD_REACTORS
330
AA
102
}
330
AA
100
AcDbXrecord
  1

  0
XRECORD
  5
AB
102
{ACAD_REACTORS
330
AA
102
}
330
AA
100
AcDbXrecord
 90
        1
  0
XRECORD
  5
AC
102
{ACAD_REACTORS
330
AA
102
}
330
AA
100
AcDbXrecord
 90
       70
  0
XRECORD
  5
C3
102
{ACAD_REACTORS
330
AA
102
}
330
AA
100
AcDbXrecord
340
0
  0
XRECORD
  5
C9
102
{ACAD_REACTORS
330
AA
102
}
330
AA
100
AcDbXrecord
 10
0.0
 20
0.0
 30
0.0
  0
XRECORD
  5
C5
102
{ACAD_REACTORS
330
AA
102
}
330
AA
100
AcDbXrecord
 10
0.0
 20
0.0
 30
0.0
  0
XRECORD
  5
C8
102
{ACAD_REACTORS
330
AA
102
}
330
AA
100
AcDbXrecord
 10
0.0
 20
0.0
 30
0.0
  0
XRECORD
  5
C6
102
{ACAD_REACTORS
330
AA
102
}
330
AA
100
AcDbXrecord
 10
0.0
 20
0.0
 30
0.0
  0
XRECORD
  5
C7
102
{ACAD_REACTORS
330
AA
102
}
330
AA
100
AcDbXrecord
 10
0.0
 20
0.0
 30
0.0
  0
XRECORD
  5
C4
102
{ACAD_REACTORS
330
AA
102
}
330
AA
100
AcDbXrecord
 10
0.0
 20
0.0
 30
0.0
  0
XRECORD
  5
C1
102
{ACAD_REACTORS
330
AA
102
}
330
AA
100
AcDbXrecord
340
0
  0
XRECORD
  5
C2
102
{ACAD_REACTORS
330
AA
102
}
330
AA
100
AcDbXrecord
 70
     0
  0
XRECORD
  5
B6
102
{ACAD_REACTORS
330
AA
102
}
330
AA
100
AcDbXrecord
  1
{FAEB1C32-E019-11D5-929B-00C0DF256EC4}
  0
DICTIONARYVAR
  5
D5
102
{ACAD_REACTORS
330
CB
102
}
330
CB
100
DictionaryVariables
280
     0
  1
1:1
  0
DICTIONARYVAR
  5
CD
102
{ACAD_REACTORS
330
CB
102
}
330
CB
100
DictionaryVariables
280
     0
  1
Standard
  0
DICTIONARYVAR
  5
CC
102
{ACAD_REACTORS
330
CB
102
}
330
CB
100
DictionaryVariables
280
     0
  1
Standard
  0
DICTIONARYVAR
  5
D0
102
{ACAD_REACTORS
330
CB
102
}
330
CB
100
DictionaryVariables
280
     0
  1
2
  0
DICTIONARYVAR
  5
D1
102
{ACAD_REACTORS
330
CB
102
}
330
CB
100
DictionaryVariables
280
     0
  1
1
  0
DICTIONARYVAR
  5
D6
102
{ACAD_REACTORS
330
CB
102
}
330
CB
100
DictionaryVariables
280
     0
  1
1
  0
DICTIONARY
  5
D9
330
45
100
AcDbDictionary
280
     1
  3
ACAD_XREC_ROUNDTRIP
360
DA
  0
DICTIONARY
  5
D7
330
44
100
AcDbDictionary
280
     1
  3
ACAD_XREC_ROUNDTRIP
360
D8
  0
DICTIONARY
  5
DB
330
46
100
AcDbDictionary
280
     1
  3
ACAD_XREC_ROUNDTRIP
360
DC
  0
XRECORD
  5
DA
102
{ACAD_REACTORS
330
D9
102
}
330
D9
100
AcDbXrecord
102
MATERIAL
148
0.0
149
0.0
149
0.0
 93
        0
 94
      127
282
     0
 72
     1
 77
     1
171
     1
175
     1
179
     1
273
     0
  0
XRECORD
  5
D8
102
{ACAD_REACTORS
330
D7
102
}
330
D7
100
AcDbXrecord
102
MATERIAL
148
0.0
149
0.0
149
0.0
 93
        0
 94
      127
282
     0
 72
     1
 77
     1
171
     1
175
     1
179
     1
273
     0
  0
XRECORD
  5
DC
102
{ACAD_REACTORS
330
DB
102
}
330
DB
100
AcDbXrecord
102
MATERIAL
148
0.0
149
0.0
149
0.0
 93
        0
 94
      127
282
     0
 72
     1
 77
     1
171
     1
175
     1
179
     1
273
     0
  0
ENDSEC
  0
EOF
